0
SECTION
2
HEADER
9
$INSUNITS
70
1
9
$ACADVER
1
AC1014
9
$HANDSEED
5
FFFF
0
ENDSEC
0
SECTION
2
TABLES
0
TABLE
2
VPORT
5
8
100
AcDbSymbolTable
0
ENDTAB
0
TABLE
2
LTYPE
5
5
100
AcDbSymbolTable
0
LTYPE
5
14
100
AcDbSymbolTableRecord
100
AcDbLinetypeTableRecord
2
BYBLOCK
70
0
0
LTYPE
5
15
100
AcDbSymbolTableRecord
100
AcDbLinetypeTableRecord
2
BYLAYER
70
0
0
ENDTAB
0
TABLE
2
LAYER
5
2
100
AcDbSymbolTable
70
2
0
LAYER
5
50
100
AcDbSymbolTableRecord
100
AcDbLayerTableRecord
2
0
70
0
6
CONTINUOUS
0
ENDTAB
0
TABLE
2
STYLE
5
3
100
AcDbSymbolTable
70
1
0
STYLE
5
11
100
AcDbSymbolTableRecord
100
AcDbTextStyleTableRecord
2
STANDARD
70
0
0
ENDTAB
0
TABLE
2
VIEW
5
6
100
AcDbSymbolTable
70
0
0
ENDTAB
0
TABLE
2
UCS
5
7
100
AcDbSymbolTable
70
0
0
ENDTAB
0
TABLE
2
APPID
5
9
100
AcDbSymbolTable
70
2
0
APPID
5
12
100
AcDbSymbolTableRecord
100
AcDbRegAppTableRecord
2
ACAD
70
0
0
ENDTAB
0
TABLE
2
DIMSTYLE
5
A
100
AcDbSymbolTable
70
1
0
ENDTAB
0
TABLE
2
BLOCK_RECORD
5
1
100
AcDbSymbolTable
70
1
0
BLOCK_RECORD
5
1F
100
AcDbSymbolTableRecord
100
AcDbBlockTableRecord
2
*MODEL_SPACE
0
BLOCK_RECORD
5
1B
100
AcDbSymbolTableRecord
100
AcDbBlockTableRecord
2
*PAPER_SPACE
0
ENDTAB
0
ENDSEC
0
SECTION
2
BLOCKS
0
BLOCK
5
20
100
AcDbEntity
100
AcDbBlockBegin
2
*MODEL_SPACE
0
ENDBLK
5
21
100
AcDbEntity
100
AcDbBlockEnd
0
BLOCK
5
1C
100
AcDbEntity
100
AcDbBlockBegin
2
*PAPER_SPACE
0
ENDBLK
5
1D
100
AcDbEntity
100
AcDbBlockEnd
0
ENDSEC
0
SECTION
2
ENTITIES
0
LINE
5
100
100
AcDbEntity
8
0
100
AcDbLine
10
0.47541333467198776
20
0.32170642055947679
30
0
11
0.11288588304709363
21
0.32170642055947679
31
0
0
ARC
5
101
100
AcDbEntity
8
0
100
AcDbCircle
10
-0.792826275038641
20
-0.19309643308721519
30
0
40
1.4636094014355496
210
-0
220
0
230
1
100
AcDbArc
50
305.00877196282244
51
310.16282594627552
0
LINE
5
102
100
AcDbEntity
8
0
100
AcDbLine
10
0.47541333467198776
20
-0.32170642055947402
30
0
11
0.11288588304709363
21
-0.32170642055947402
31
0
0
LINE
5
103
100
AcDbEntity
8
0
100
AcDbLine
10
0.11288588304709363
20
0.32170642055947679
30
0
11
0.31998395582821049
21
0.17669565787141545
31
0
0
ARC
5
104
100
AcDbEntity
8
0
100
AcDbCircle
10
-0.49972624864711851
20
-0.55033677214869536
30
0
40
1.0015832689415103
210
-0
220
0
230
1
100
AcDbArc
50
-49.470193949660498
51
13.195178432326664
0
ARC
5
105
100
AcDbEntity
8
0
100
AcDbCircle
10
-6.1230808247335169
20
-1.8789815897427727e-08
30
0
40
0.39827642790682327
210
0
220
0
230
1
100
AcDbArc
50
153.66294705493911
51
206.33705294506123
0
LINE
5
106
100
AcDbEntity
8
0
100
AcDbLine
10
3.7449887910335309
20
3.5439780269456977
30
0
11
3.5782282213295922
21
3.3058139777189783
31
0
0
ARC
5
107
100
AcDbEntity
8
0
100
AcDbCircle
10
7.5928262750386368
20
0.19309643308721519
30
0
40
1.4636094014355496
210
0
220
0
230
1
100
AcDbArc
50
125.00877196282246
51
130.16282594627552
0
LINE
5
108
100
AcDbEntity
8
0
100
AcDbLine
10
3.7449891248571485
20
-3.5439993213530956
30
0
11
3.7449891248571485
21
-3.1270927519844651
31
0
0
ARC
5
109
100
AcDbEntity
8
0
100
AcDbCircle
10
-0.67691917526648315
20
1.8789815897427727e-08
30
0
40
0.39827642790682011
210
-0
220
0
230
1
100
AcDbArc
50
-26.337052945060897
51
26.337052945061259
0
LINE
5
110
100
AcDbEntity
8
0
100
AcDbLine
10
3.0050794083623646
20
-3.1270955595177745
30
0
11
3.0050825722053442
21
-3.5440021288744012
31
0
0
ARC
5
111
100
AcDbEntity
8
0
100
AcDbCircle
10
2.7369863125992286
20
4.2285814742045718
30
0
40
1.1336692318244601
210
0
220
0
230
1
100
AcDbArc
50
216.5379919144647
51
283.67918280847613
0
LINE
5
112
100
AcDbEntity
8
0
100
AcDbLine
10
-3.7449891248571512
20
3.5439993213530947
30
0
11
-3.7449891248571512
21
3.1270927519844642
31
0
0
ARC
5
113
100
AcDbEntity
8
0
100
AcDbCircle
10
-2.7369863125992335
20
-4.2285814742045744
30
0
40
1.1336692318244608
210
0
220
-0
230
1
100
AcDbArc
50
36.537991914464641
51
103.67918280847604
0
ARC
5
114
100
AcDbEntity
8
0
100
AcDbCircle
10
3.3750379758153648
20
2.8953654309881802
30
0
40
0.45798939440292302
210
0
220
-0
230
1
100
AcDbArc
50
63.662547766601875
51
116.33788704268886
0
LINE
5
115
100
AcDbEntity
8
0
100
AcDbLine
10
-6.3245866653280123
20
-0.32170642055947402
30
0
11
-6.6871141169529054
21
-0.32170642055947402
31
0
0
ARC
5
116
100
AcDbEntity
8
0
100
AcDbCircle
10
-3.3750379758153684
20
-2.8953654309881847
30
0
40
0.45798939440292047
210
0
220
0
230
1
100
AcDbArc
50
243.66254776660176
51
296.33788704268892
0
ARC
5
117
100
AcDbEntity
8
0
100
AcDbCircle
10
-7.285990332123446
20
0.55483625900121358
30
0
40
0.98926565294645263
210
-0
220
0
230
1
100
AcDbArc
50
-13.630500582101156
51
49.905518673302787
0
LINE
5
118
100
AcDbEntity
8
0
100
AcDbLine
10
-3.744988791033534
20
-3.5439780269456991
30
0
11
-3.5782282213295957
21
-3.3058139777189801
31
0
0
ARC
5
119
100
AcDbEntity
8
0
100
AcDbCircle
10
-4.0147802046209797
20
-4.2276697677566721
30
0
40
1.133182394870287
210
0
220
-0
230
1
100
AcDbArc
50
76.22674229047675
51
145.85999712128583
0
ARC
5
120
100
AcDbEntity
8
0
100
AcDbCircle
10
0.67691917526648349
20
-1.8789815897427727e-08
30
0
40
0.39827642790682266
210
0
220
0
230
1
100
AcDbArc
50
153.66294705493928
51
206.33705294506106
0
LINE
5
121
100
AcDbEntity
8
0
100
AcDbLine
10
-3.7449919548765136
20
-3.1270714575890723
30
0
11
-3.744988791033534
21
-3.5439780269456991
31
0
0
LINE
5
122
100
AcDbEntity
8
0
100
AcDbLine
10
-0.11288588304709608
20
-0.32170642055947679
30
0
11
-0.31998395582821293
21
-0.17669565787141545
31
0
0
LINE
5
123
100
AcDbEntity
8
0
100
AcDbLine
10
-6.480016044171788
20
-0.17669569545105004
30
0
11
-6.6871141169529054
21
-0.32170642055947402
31
0
0
LINE
5
124
100
AcDbEntity
8
0
100
AcDbLine
10
3.1718446154729989
20
3.3058124357261045
30
0
11
3.0050822383817257
21
3.5439752194243921
31
0
0
ARC
5
125
100
AcDbEntity
8
0
100
AcDbCircle
10
1.1644282308302105
20
0.25740343230033152
30
0
40
2.0475676235124869
210
0
220
0
230
1
100
AcDbArc
50
230.02106285398443
51
233.90680837546572
0
ARC
5
126
100
AcDbEntity
8
0
100
AcDbCircle
10
0.79282627503863856
20
0.19309643308721519
30
0
40
1.4636094014355496
210
0
220
0
230
1
100
AcDbArc
50
125.00877196282246
51
130.16282594627552
0
LINE
5
127
100
AcDbEntity
8
0
100
AcDbLine
10
-0.47541333467198743
20
-0.32170642055947679
30
0
11
-0.11288588304709608
21
-0.32170642055947679
31
0
0
ARC
5
128
100
AcDbEntity
8
0
100
AcDbCircle
10
4.0147802046209753
20
4.2276697677566712
30
0
40
1.1331823948702868
210
0
220
0
230
1
100
AcDbArc
50
256.22674229047675
51
325.85999712128586
0
LINE
5
129
100
AcDbEntity
8
0
100
AcDbLine
10
6.6871141169529027
20
-0.32170642055947679
30
0
11
6.4800160441717853
21
-0.17669565787141545
31
0
0
ARC
5
130
100
AcDbEntity
8
0
100
AcDbCircle
10
-7.2997262486471159
20
-0.55033677214869536
30
0
40
1.0015832689415092
210
-0
220
0
230
1
100
AcDbArc
50
-49.470193949660604
51
13.19517843232672
0
LINE
5
131
100
AcDbEntity
8
0
100
AcDbLine
10
-3.5782267477658789
20
3.3058365376548071
30
0
11
-3.7449891248571512
21
3.5439993213530947
31
0
0
LINE
5
132
100
AcDbEntity
8
0
100
AcDbLine
10
-3.0050794083623669
20
3.1270955595177736
30
0
11
-3.0050825722053469
21
3.5440021288744004
31
0
0
ARC
5
133
100
AcDbEntity
8
0
100
AcDbCircle
10
-2.7352911586179021
20
4.2276938696853739
30
0
40
1.1331823948702866
210
0
220
0
230
1
100
AcDbArc
50
256.22674229047686
51
325.85999712128586
0
ARC
5
134
100
AcDbEntity
8
0
100
AcDbCircle
10
-3.3750333874235126
20
2.8953895329168833
30
0
40
0.45798939440292302
210
0
220
-0
230
1
100
AcDbArc
50
63.662547766601875
51
116.33788704268893
0
ARC
5
135
100
AcDbEntity
8
0
100
AcDbCircle
10
-4.0130850506396492
20
4.2286055761332744
30
0
40
1.1336692318244597
210
0
220
0
230
1
100
AcDbArc
50
216.5379919144647
51
283.67918280847618
0
LINE
5
136
100
AcDbEntity
8
0
100
AcDbLine
10
-6.6871141169529063
20
0.32170642055947818
30
0
11
-6.4800160441717898
21
0.17669565787141686
31
0
0
ARC
5
137
100
AcDbEntity
8
0
100
AcDbCircle
10
2.7352911586178985
20
-4.2276938696853748
30
0
40
1.133182394870287
210
0
220
-0
230
1
100
AcDbArc
50
76.22674229047675
51
145.8599971212858
0
LINE
5
138
100
AcDbEntity
8
0
100
AcDbLine
10
6.4800160441717853
20
0.17669569545105004
30
0
11
6.6871141169529027
21
0.32170642055947402
31
0
0
LINE
5
139
100
AcDbEntity
8
0
100
AcDbLine
10
-0.47541333467198743
20
0.32170642055947402
30
0
11
-0.11288588304709608
21
0.32170642055947402
31
0
0
LINE
5
140
100
AcDbEntity
8
0
100
AcDbLine
10
-6.3245866653280141
20
0.32170642055947818
30
0
11
-6.6871141169529063
21
0.32170642055947818
31
0
0
ARC
5
141
100
AcDbEntity
8
0
100
AcDbCircle
10
3.3750333874235099
20
-2.8953895329168837
30
0
40
0.45798939440292302
210
0
220
0
230
1
100
AcDbArc
50
243.66254776660188
51
296.33788704268892
0
ARC
5
142
100
AcDbEntity
8
0
100
AcDbCircle
10
-7.9644282308302099
20
-0.25740343230033152
30
0
40
2.0475676235124864
210
0
220
-0
230
1
100
AcDbArc
50
50.021062853984546
51
53.906808375465786
0
ARC
5
143
100
AcDbEntity
8
0
100
AcDbCircle
10
4.0130850506396465
20
-4.2286055761332753
30
0
40
1.1336692318244597
210
0
220
-0
230
1
100
AcDbArc
50
36.537991914464691
51
103.67918280847616
0
LINE
5
144
100
AcDbEntity
8
0
100
AcDbLine
10
-3.1718446154730024
20
-3.3058124357261076
30
0
11
-3.0050822383817293
21
-3.5439752194243948
31
0
0
ARC
5
145
100
AcDbEntity
8
0
100
AcDbCircle
10
7.2997262486471142
20
0.55033677214869536
30
0
40
1.0015832689415103
210
0
220
0
230
1
100
AcDbArc
50
130.52980605033946
51
193.19517843232677
0
ARC
5
146
100
AcDbEntity
8
0
100
AcDbCircle
10
0.48599033212344439
20
-0.55483625900121214
30
0
40
0.98926565294645263
210
0
220
0
230
1
100
AcDbArc
50
166.36949941789885
51
229.90551867330274
0
LINE
5
147
100
AcDbEntity
8
0
100
AcDbLine
10
6.3245866653280114
20
0.32170642055947402
30
0
11
6.6871141169529027
21
0.32170642055947402
31
0
0
LINE
5
148
100
AcDbEntity
8
0
100
AcDbLine
10
-0.31998395582821293
20
0.17669569545105004
30
0
11
-0.11288588304709608
21
0.32170642055947402
31
0
0
LINE
5
149
100
AcDbEntity
8
0
100
AcDbLine
10
3.5782267477658762
20
-3.305836537654808
30
0
11
3.7449891248571485
21
-3.5439993213530956
31
0
0
LINE
5
150
100
AcDbEntity
8
0
100
AcDbLine
10
3.0050825722053442
20
-3.5440021288744012
30
0
11
3.1718431419092825
21
-3.3058380796476818
31
0
0
ARC
5
151
100
AcDbEntity
8
0
100
AcDbCircle
10
-7.5928262750386386
20
-0.19309643308721519
30
0
40
1.4636094014355496
210
-0
220
0
230
1
100
AcDbArc
50
305.00877196282244
51
310.16282594627546
0
LINE
5
152
100
AcDbEntity
8
0
100
AcDbLine
10
-3.0050825722053469
20
3.5440021288744004
30
0
11
-3.1718431419092852
21
3.3058380796476814
31
0
0
LINE
5
153
100
AcDbEntity
8
0
100
AcDbLine
10
3.0050822383817257
20
3.5439752194243921
30
0
11
3.0050822383817257
21
3.1270686500557616
31
0
0
ARC
5
154
100
AcDbEntity
8
0
100
AcDbCircle
10
-0.48599033212344683
20
0.55483625900121214
30
0
40
0.98926565294645541
210
-0
220
0
230
1
100
AcDbArc
50
-13.630500582101106
51
49.905518673302744
0
LINE
5
155
100
AcDbEntity
8
0
100
AcDbLine
10
3.74499195487651
20
3.127071457589071
30
0
11
3.7449887910335309
21
3.5439780269456977
31
0
0
LINE
5
156
100
AcDbEntity
8
0
100
AcDbLine
10
-3.0050822383817293
20
-3.5439752194243948
30
0
11
-3.0050822383817293
21
-3.1270686500557647
31
0
0
ARC
5
157
100
AcDbEntity
8
0
100
AcDbCircle
10
7.964428230830209
20
0.25740343230033152
30
0
40
2.0475676235124869
210
0
220
0
230
1
100
AcDbArc
50
230.02106285398443
51
233.90680837546572
0
LINE
5
158
100
AcDbEntity
8
0
100
AcDbLine
10
6.3245866653280114
20
-0.32170642055947679
30
0
11
6.6871141169529027
21
-0.32170642055947679
31
0
0
ARC
5
159
100
AcDbEntity
8
0
100
AcDbCircle
10
0.49972624864711607
20
0.55033677214869536
30
0
40
1.0015832689415103
210
0
220
0
230
1
100
AcDbArc
50
130.52980605033952
51
193.19517843232668
0
ARC
5
160
100
AcDbEntity
8
0
100
AcDbCircle
10
6.1230808247335151
20
1.8789815897427727e-08
30
0
40
0.39827642790682011
210
-0
220
0
230
1
100
AcDbArc
50
-26.337052945060897
51
26.337052945061259
0
ARC
5
161
100
AcDbEntity
8
0
100
AcDbCircle
10
7.2859903321234425
20
-0.55483625900121214
30
0
40
0.98926565294645263
210
0
220
0
230
1
100
AcDbArc
50
166.36949941789879
51
229.90551867330274
0
ARC
5
162
100
AcDbEntity
8
0
100
AcDbCircle
10
-1.1644282308302101
20
-0.25740343230033152
30
0
40
2.0475676235124851
210
0
220
-0
230
1
100
AcDbArc
50
50.021062853984517
51
53.906808375465758
0
LINE
5
163
100
AcDbEntity
8
0
100
AcDbLine
10
0.31998395582821049
20
-0.17669569545105004
30
0
11
0.11288588304709363
21
-0.32170642055947402
31
0
0
ENDSEC
0
SECTION
2
OBJECTS
0
DICTIONARY
5
C
100
AcDbDictionary
3
ACAD_GROUP
350
D
3
ACAD_MLINESTYLE
350
17
0
DICTIONARY
5
D
100
AcDbDictionary
0
DICTIONARY
5
1A
330
C
100
AcDbDictionary
0
DICTIONARY
5
17
100
AcDbDictionary
0
ENDSEC
0
EOF
